Beatles - Strawberry fields forever
 
* voir au bas de la page pour les accords et la phrase.
---------------------------------------------------------------
-intro  
G*  Gmaj7*  G7*  Am  G  F  C
---------------------------------------------------------------
-Refrain
N.C.                                Gm
let me take you down cos' I'm going to  strawberry fields
A7
nothing is real
   F               A7
and nothing to get hung about
F                 C
strawberry fields forever
---------------------------------------------------------------
-Phrase
---------------------------------------------------------------
-couplet 1
G*          Gmaj7*   G7*
living is easy with eyes closed
Am       Am/G            F
misunderstanding all you see
F            G                 C       G/B      Am   Am/G
it's getting hard to be someone but it all work out
F          G              F    C
it doesn't matter much to me
---------------------------------------------------------------
-Refrain
---------------------------------------------------------------
-Phrase
---------------------------------------------------------------
-couplet 2
G*         Gmaj7*    G7*
no one I think is in my tree
Am        Am7             F
I mean it must be high or low
F           G                   C             Am     Am/G
that is you can't you know tune in but it's alright
F         G                  F    C
that is I think it's not too bad
---------------------------------------------------------------
-Refrain
---------------------------------------------------------------
-Phrase
---------------------------------------------------------------
-couplet 3
G*         Gmaj7*    G7*
always, no, sometimes think it's me
Am             Am7              F
but you know I know when it's a dream
F          G          C               Am      Am/G
I think a no I mean a yes but it's all wrong
F         G7          F     C
that is I think I disagree
---------------------------------------------------------------
-Refrain
---------------------------------------------------------------
-FINAL
F                    C
Strawberry fields forever
F                              
Strawberry fields forever
C
---------------------------------------------------------------

-Phrase               
                         C
e-|-1--0-----------------0------|
B-|-------1--------------1------|
G-|----------3--0--------0------|
D-|----------------3--2--2------|
A-|----------------------3------|
E-|-----------------------------|

-Accords
        eBGDAE
G*------x345xx
Gmaj7*--x344xx
G7*-----x343xx

 

Bruno Leclerc :http://pages.videotron.com/kastor

     courriel :parolesaccords@caramail.com